Ukulele Utopia

A Virtual Learning Experience

Ozzy Osbourne – Crazy Train

Crazy Train

This is so so so undeniably one of the top 5 riffs of all time. Not only is the instrumentation is amazing, but it has some really poignant lines too. One of my favourites being “Maybe it’s not too late, To learn how to love and forget how to hate”.

What Are We Learning To Play?

Below is a video of what you will be able to play by the end of this post. 

Ukulele Tabs

This song is a right of passage for any would be musician so lets learn to play it on the ukulele. The iconic riff is the second part of these tabs. I recommend utilising your pinky finger to hit all them 5th frets on both the A and the E strings.

A |-----------------|-------5-5--7-7--|
E |-----------------|-----------------|
C |-6-6---9-9--4-4--|-6-6-------------|
G |-----------------|-----------------|

A |-----4---5---4---2-------2-------|----|-----4---5---4---5---7---|
E |-2-2---2---2---2---5-4-5---5-4-0-|----|-2-2---2---2---2-5---7---|
C |---------------------------------|-x3-|-------------------------|
G |---------------------------------|----|-------------------------|

A |--x-x-4-x-x-7-x-x-5-x-x-4---4-4--|
E |--x-x-5-x-x-4-x-x-2-x-x-0---0-0--|
C |---------------------------------|
G |---------------------------------|

login

Badge Unlocked

Welcome To The Jungle

Complete your first lesson

Badge Unlocked

Start Me Up

Complete The Basics

The Basics

In this section, we will cover everything you need to know about starting to play the ukulele.