Sleep Now in the Fire

Sleep Now in the Fire

I fell in love with Smashing Pumpkins after seeing the video for 1979 on Kerrang! way back when.  it wasn’t long before i had gotten a copy of Siamese Dream and was immediately awed by the fantastic guitar work on it. The pinnacle of it being Cherub Rock.

What Are We Learning To Play?

Below is a video of what you will be able to play by the end of this post. 

Ukulele Tabs

The key to playing this well is to play it fast. Theres lots of notes going on so its super important to be in control of what we are playing. To achieve that, we can make it easier on ourselves by palm muting the strings and using our finger nail as a plectrum.

A |-------------------------------------|
E |----------------x3-------------------|
C |---------------------2---2---0h2-0---|
G |-2-2-0-2-5---2---------------------2-|

A |-----------3---------------3---------------3----3-5-5-3-5-3-----|
E |-3/5-5-3-5---5---5-5-5-3-5---5---5-5-5-3-5----5-------------5-3-|
C |----------------------------------------------------------------|
G |----------------------------------------------------------------|