Ukulele Utopia

A Virtual Learning Experience

The Beatles – I Feel Fine

I Feel Fine

This is one of those riffs that as soon as you hear it, you want to be able to play it. That was the case with me when I was playing a 6 string years ago anyways. The recording has a lovely tone and it sounds great on a uke. Let’s learn to play I Feel Fine on the ukulele.

What Are We Learning To Play?

Below is a video of what you will be able to play by the end of this post. 

Ukulele Tabs

It’s important to note that I’m playing this song on a low G ukulele in the video above. If you don’t have one though, that’s completely fine as we change it slightly and still make it work.

Instead of playing the 7th fret on the G string for the opening note. Play the 2nd fret on the C string instead. Likewise, change the 5th on the G to the open C string for the next section.

The p on the tabs stand for pull-off. It essentially means, plucking the note and dragging your finger off to reveal the fret lower down the neck.

A |--------------10-9-7-9-|-----------8-7-5-7-|
E |----10-10p8------------|---8-8p6-----------|
C |------------9----------|---------7---------|
G |-7---------------------|-5-----------------|

A |------------3-2-0-2-|------------3-2-0-2-|
E |----3-3p1-----------|----3-3p1-----------|
C |----------2---------|----------2---------|
G |--0-----------------|--0-----------------|

login

Badge Unlocked

Welcome To The Jungle

Complete your first lesson

Badge Unlocked

Start Me Up

Complete The Basics

The Basics

In this section, we will cover everything you need to know about starting to play the ukulele.