Ukulele Utopia

A Virtual Learning Experience

Iron Maiden – The Trooper

The Trooper

One of my favourite iron maiden songs growing up, I had to cover it on my ukulele! This is a song that is going to require some serious finger dexterity. 

Iron Maiden Ukulele Tabs

Not sure how to read these? Check out this guide and you will be learning these ukulele tabs in no time.

Intro

Guitar 1
 
A|--7--7--7p5----5--5--5p3----3--3--3p2----5--10--5--7--|
E|------------7------------5------------3---------------|
C|------------------------------------------------------|
G|------------------------------------------------------|  x4
 
Guitar 2
 
A|--10--10--10p9-----9--9--9p7-----7--7--7p5------------|
E|---------------12------------10------------7----------|
C|------------------------------------------------------|
G|------------------------------------------------------|  x2

Intro - Part 2

Guitar 1
 
A|----------------2-------------------------------------------|
E|--3--2h3p2h3p2-----3--2h3p2h3p2--3--------------3-----------|
C|------------------------------------4--4-----2-----2--4-----|
G|------------------------------------------------------------|  x8
 
Guitar 2
 
A|----------------5-------------------------------------------|
E|--7--5h7p5h7p5-----7--5h7p5h7p5--7--------------------------|
C|------------------------------------7--7-----6--7--6--7-----|
G|------------------------------------------------------------|  x8

Verse

A|-------------2--------------2--------------3-------------2--| 
E|-----3-------3-----3--------3-----3--------0-----3-------3--|
C|--2-----2h4--4--2-----2--4--4--2-----2--0--0--2-----2h4--4--|
G|-------------------------------------------0----------------|

Solo

Chords under Solo
 
(E , D , B, C)
 
A|--2--2--2--3--|
E|--3--2--2--0--|
C|--4--2--2--0--|
G|-----2--4--0--|
 
A|----------------------------10--10p7-------------------|
E|--10b12--10b12--10p7h10--7------------10--7------------|
C|---------------------------------------------10--9--7--|
G|-------------------------------------------------------|
 
                  (x4)
A|----------------------------------------------------------|
E|-------7h10-----------10--7-------------------------------|
C|--9b8--------9--------------10--9--7----------------------|
G|----------------------------------------------------------|
 
                         (x6)
A|------14p10------12p10--------15b17--15b17--15b17--15b18--|
E|--12---------12-------------------------------------------|
C|----------------------------------------------------------|
G|----------------------------------------------------------|
 
A|--15--14--12------12--14--12----------|
E|--------------15--------------15--12--|
C|--------------------------------------|
G|--------------------------------------|
 
A|--------7---------------------------|
E|-----7-----10b12--10p7--------------|
C|--9---------------------10--9--7\5--|
G|------------------------------------|

Solo Part 2

Chords over second part of solo
 
(A , G , E , F )
 
A|--0--2--2--0--|
E|--0--3--3--1--|
C|--0--2--4--0--|
G|--2--------2--|
 
 
A|--3p0--3p0--3p0--3p0---------------------------|
E|----------------------3p0--3p0--3p0--3p0--3/5--|
C|-----------------------------------------------|
G|-----------------------------------------------|
 
A|--5--4--3-----3--4--3----------------------|
E|-----------5-----------5--4--3-------------|
C|--------------------------------4--2--2/4--|
G|-------------------------------------------|
 
A|--------------0-----2-----3-----5-----7--------7/10--|
E|--0-----3--------------------------------------------|
C|-----------------------------------------------------|
G|-----------------------------------------------------|
 
A|--10p7h10p7h10p7h10p7---------------------------|
E|-----------------------10--10p7h10p7h10p7h10p7--|
C|------------------------------------------------|
G|------------------------------------------------|
 
A|--10-----10-----|
E|--7------7------|
C|--9------9------|
G|----------------|
 
A|---------10b12--15b17--12------15--14--12------12--14--12---------------------|
E|--10b12--------------------15--------------15--------------15--12--10--10/12--|
C|------------------------------------------------------------------------------|
G|------------------------------------------------------------------------------|

login

Badge Unlocked

Welcome To The Jungle

Complete your first lesson

Badge Unlocked

Start Me Up

Complete The Basics

The Basics

In this section, we will cover everything you need to know about starting to play the ukulele.