Ukulele Utopia

A Virtual Learning Experience

Weezer – Say It Aint So

Say It Aint So

One of my favourite Weezer licks and it sounds borderline perfect on the ukulele.

What Are We Learning To Play?

Below is a video of what you will be able to play by the end of this post. 

Ukulele Tabs

This is a fantastic song to learn as we are incorporating lots of different techniques. Firstly we have a full chord slide. Use your first finger and barre the bottom three strings and the 2nd fret. Strum the strings and quickly slide your finger up to the 3rd fret.

A|--2/3-----3--3--2--------------2-----|--2/3-----3--3--------------1--|
E|--2/3-----3--3--3-----3-----3-----3--|--3/4-----4--4--3--------3-----|
C|--2/3-----3--3--2-----2--2-----------|--2/3-----3--3--3-----3--------|
G|----------------4-----4--------------|--4/5-----5--5--3--------------|

A |-6--5-5-5--6--6-6-6--|
E |-8--7-7-7--8--6-6-6--|
C |-7--7-7-7--8--7-7-7--|
G |---------------------|

login

Badge Unlocked

Welcome To The Jungle

Complete your first lesson

Badge Unlocked

Start Me Up

Complete The Basics

The Basics

In this section, we will cover everything you need to know about starting to play the ukulele.