Ukulele Utopia

A Virtual Learning Experience

Gerry Cinnamon – Lullaby

Lullaby

What I love about Gerry Cinnamon is his ability to mask his very sombre songs with these upbeat and lively instrumentals. It’s a heady mix that makes for some fantastic music. I was torn with what song to play on the ukulele but the intro to Lullaby was begging to be played.

What Are We Learning To Play?

Below is a video of what you will be able to play by the end of this post. 

Ukulele Tabs

Although it sounds complicated, the solo isn’t that tricky. The hard part is remembering it all. It is split into 6 sections so I suggest you take them one by one and then blend them all together.

A |-----|---------------------------------|---------------------------------|
E |-14/-|---------------------------5-7-5-|---------------------------5-7-5-|
C |-----|-6-6-6-6-6-6-6-6-6-6-6-6-6-------|-6-6-6-6-6-6-6-6-6-6-6-6-6-------|
G |-----|---------------------------------|---------------------------------|

A |----------------------------------|---------------------------------|
E |--7-7-7-7-7-7-7-7-7-7-7-7-7-9-7-5-|---------------------------7-9-7-|
C |----------------------------------|-6-6-6-6-6-6-6-6-6-6-6-6-6-------|
G |----------------------------------|---------------------------------|

A |---------------------------------|-------------------4-4-4-6-4-3-4-|
E |-9-9-9-9-9-9-9-9-7-7-7-5-7-9-7-5-|---------------------------------|
C |---------------------------------|-6-6-6-6-6-6-6-6-6---------------|
G |---------------------------------|---------------------------------|

Solo

A |---------0---2p0---0--------------------|---------2/4-4-4--2h4p2-0h2-0---------|
E |-----0-2---2-----2---2-0-2----4h5p4p2-0-|---0-2-0----------------------2-0---0-|
C |-0h1------------------------------------|-1--------------------------------1---|
G |----------------------------------------|--------------------------------------|

A |-----------------2p0---0-2/4-4-4-4-|-2-4-2-0-2-0---0---------------|
E |-2--2--2h0---0-2-----2-------------|-------------2---2-0---0-2-2-2-|
C |-----------1-----------------------|---------------------1---------|
G |-----------------------------------|-------------------------------|

A |---------------2-0---2/4-4-4-4-4-4-2-0-2-|-2/4-2-0-2-0---0-2-2/4-4-4-4-4-4-4-4-4-4-4-|
E |-4h5--2p0----2-----2---------------------|-------------2-----------------------------|
C |-----------1-----------------------------|-------------------------------------------|
G |-----------------------------------------|-------------------------------------------|

login

Badge Unlocked

Welcome To The Jungle

Complete your first lesson

Badge Unlocked

Start Me Up

Complete The Basics

The Basics

In this section, we will cover everything you need to know about starting to play the ukulele.