Ukulele Utopia

A Virtual Learning Experience

Minutes To Midnight

Leave Out All The Rest, What Ive Done, Valentines Day

This video is part of a project I’m working on. I’m learning to play my favourite albums on a ukulele. If you enjoyed it why not check out some other classic albums that I arranged. Like Korn or Placebo.

This video is part of a project I’m working on. I’m learning to play my favourite albums on a ukulele. If you enjoyed it why not check out some other classic albums that I arranged like Kings Of Leon, Muse and Lorde.

Linkin Park Ukulele Tabs

Not sure how to read these? Check out this guide and you will be learning these ukulele tabs in no time.

Leave Out All The Rest

A|-3---3---3---3---7---7---7---7---7---7---7---7---5---5---5---5---
E|---5---5---5---5---5---5---5---5---8---8---8---8---5---5---5---5-
C|-----------------------------------------------------------------
G|-----------------------------------------------------------------

A|---------------------------------------------------------------------------- E|-------3-3----3-3-1-0-1-3-3----3-1-0-1-0------------------------------------ C|-0-2-0-----------------------------------0----2-0---0-2---x2----4-2-0-0-0--- G|--------------------------------------------------2-----------------------2-

What I've Done

A|---5---5-6-5---5---5---5-6-5---5---5---5-6-5---5---5---5-6-5---5-
E|-3---3-------3---3---3-------3---3---3-------3---3---3-------3---
C|---------------------------------5---------------0---------------
G|-0---------------3-----------------------------------------------

A|-----|----------------------------------------------------------------- E|-x-x-|-6-6-6-6-6-5-5-5-6-6-6-6-6-8-8-8-5-5-5-5-5-5-5-5-3-3-3-3-3-5-5-5- C|-x-x-|-7-7-7-7-7-7-7-7-7-7-7-7-7-7-7-7-5-5-5-5-5-5-5-5-3-3-3-3-3-5-5-5- G|-x-x-|-----------------------------------------------------------------

Valentines Day

A|-----------0---------------------|-----------0---------------------
E|---1---3-------3---1---3---1---1-|---1---3-------3---1---3---1---1-
C|-2---2---2---2---2---2---2---2---|-0---0---0---0---0---0---0---0---
G|---------------------------------|---------------------------------

More songs from this album?

Support the site by joining Learn The Licks and getting easy to print PDFs of 150+ albums

login

Badge Unlocked

Welcome To The Jungle

Complete your first lesson

Badge Unlocked

Start Me Up

Complete The Basics

The Basics

In this section, we will cover everything you need to know about starting to play the ukulele.