Freaking Out the Neighbourhood

Freaking Out the Neighbourhood

This song is about when Mac was playing a drunken gig and somehow drumsticks ended up in his behind. Due to it being the 21st century, a video of it ended up online. One thing led to another and his mother and grandmother saw it. The song is essentially an apology to them.

What Are We Learning To Play?

Below is a video of what you will be able to play by the end of this post. 

Ukulele Tabs

A |---6---6-----4-------4-------11-11-11-9-7-6-|
E |-7---7---7-----6---6------------------------|
C |-----------------6-----6/8------------------|
G |--------------------------------------------|

A |---6---6-----4-------4----------------------|
E |-7---7---7-----6---6---------11-11-11-9-7-6-|
C |-----------------6-----6/8------------------|
G |--------------------------------------------|

If you enjoyed this post, you may be interested to see my ukulele arrangement of the Mac DeMarco – 2 album.