Swimming Pools (Drank)

Swimming Pools (Drank)

Kendrick’s humongous hit m.A.A.d city from his album good kid, m.A.A.d city is a pure hip hop banger. It’s also super simple to play, so let’s learn to play it on the ukulele. 

What Are We Learning To Play?

Below is a video of what you will be able to play by the end of this post. 

Ukulele Tabs

The easiest way to play this intro riff is to form a chord, then pluck the notes. Use your ring finger for the 11th fret of the C string. Then your middle finger on the 10th of the E. Lastly, use your index finger on the 9th fret of the A.

This is going to leave your pinky finger free to hit that 12th fret on the A string. 

A|-9----9---------12---9-|-9----9---------12---9-|
E|---10---10-------------|---10---10-------------|
C|-----------11----------|-----------11----------|
G|-----------------------|-----------------------|



A|-9----9---------12---9-|-9----9---------12---9-|
E|---10---10-------------|---10---10-------------|
C|-----------11----------|-----------11----------|
G|-----------------------|-----------------------|

MORE SONGS FROM THIS ALBUM?

Easy-to-print PDFs tabs for over 150 albums.

MORE SONGS FROM THIS ALBUM?

Easy-to-print PDFs tabs for over 150 albums.