Banquet

Banquet

I recently discovered an old playlist called “Indie Stuff 2005”. Man, what a decent era in UK music. Guitar bands owned the charts and sublime debut albums like Bloc Party’s Silent Alarm were coming out left, right and centre. Banquet is a certified banger.

What Are We Learning To Play?

Below is a video of what you will be able to play by the end of this post. 

Ukulele Tabs

If you have a ukulele buddy, this is the perfect song to play with them. It is possible to play both parts at once if you are experienced enough though.

A|-----------------------------------|-----------------------------------|
E|-----------6-6-------4-4-------9-9-|-----------6-6-------4-4-----------|
C|-5-5-------3-3-------1-1-------6-6-|-5-5-------3-3-------1-1-------3-3-|
G|-3-3-------------------------------|-3-3---------------------------1-1-|

A|-------8-9-------8-9-------8-8-------------|-------8-9-------8-9-------------------11-11-|
E|-------9-9-------9-9-------9-9-------9--9--|-------9-9-------9-9-------9--9--------11-11-|
C|-------------------------------------10-10-|---------------------------10-10-------------|
G|-------------------------------------------|---------------------------------------------|