Emergency Contraception, Lamplight, Early/Morning

Emergency Contraception, Lamplight, Early/Morning

It’s one of those albums where no particular song stands out, mainly as they are all of equal strength but also because every track fits so well together. Although saying that I do remember having Always Like This on repeat when I first heard it haha. Tasty melodies and heavenly harmonies.

This video is part of my Top 50 Albums on a ukulele project, if you enjoyed it why not check out some other albums that I arranged for ukulele. Like Bon Iver or Arctic Monkeys. Or Some of Bombay’s early inspirations like Led Zeppelin or Fleetwood Mac

Bombay Bicycle Club Ukulele Tabs

Not sure how to read these? Check out my free course and you will be learning these ukulele tabs in no time.

Emergency Contraception

A|--9h11p9-------------11--11--|--4--4--4--------1-----------4--4--4--5--5--6--6--7--7--7--7--| 
E|----------12--12--9--9---9---|--2--2-----2--------2-----2-----------------------------------|
C|-----------------------------|--1--1--------1--------1-----1--1--1--2--2--3--3--4--4--4--4--|
G|-----------------------------|--------------------------------------------------------------|


lamplight

Uke 1

A|--x--x--9--x--x--9--x--x--|--|--x--x--7--x--x--7--x--x--|--|-- E|--x--x--7--x--x--7--x--x--|x2|--x--x--9--x--x--9--x--x--|x2|-- A|--x--x--8--x--x--8--x--x--|--|--x--x--8--x--x--8--x--x--|--|-- G|--------------------------|--|--------------------------|--|--
Uke 2

A|--------------------------|--|--------------------------|--|-- E|--4--4--4--4--4--4--4--4--|x2|--0--0--0--0--0--0--0--0--|x2|-- A|--4--4--4--4--4--4--4--4--|--|--1--1--1--1--1--1--1--1--|--|-- G|--------------------------|--|--------------------------|--|--
Use 3 (Lead Riff)
A|-----------------------------------|-------------------------------- E|-----------------------------------|-------------------------------- A|-----------------------------------|-------------------------------- G|--11--9--11--9-----9--11--9--4-----|--11--9--11--9-----9--11--9--1--
A|----------------------------------|---------------------------------- E|----------------------------------|-------------------4--7----------- A|--4/6--4--6--4-----4--6--4--1-----|--4/6--4--6--4-------------------- G|----------------------------------|----------------------------------

Early/Morning

A|----------------------------------|--------------------------------
E|----------------------------------|--------------------------------
A|----------------------------------|--------------------------------
G|--11--9--11--9-----9--11--9--4----|--11--9--11--9-----9--11--9--1--

A|----------------------------------|---------------------------------- E|----------------------------------|-------------------4--7----------- A|--4/6--4--6--4-----4--6--4--1-----|--4/6--4--6--4-------------------- G|----------------------------------|----------------------------------