Ukulele Utopia

A Virtual Learning Experience

Free – All Right Now

All Right Now

This song was on a complication CD that my mam got me when I was younger. “The Best Air Guitar Anthems Of All Time”. I will never forget when she came home complaining that she didn’t get a free air guitar like advertised from HMV 🤣

What Are We Learning To Play?

Below is a video of what you will be able to play by the end of this post. 

Ukulele Tabs

This little arrangement is inspired very much from Al’s tabs over at Uke Hunt. If you learning to play the ukulele, you need to be on his website every day. It’s an Amazing resource for all levels of player.

The intro riff is pretty much a chord progression with some fantastically placed muted chords ( x ). That means placing your fretting hand across the strings and strumming. It will create a percussive sound.

A |-0--x-x-x--0-0-|-0--x-x-x-x-x--0-|-0-0-0-0--0-0-0-0-|-0--x-x-x-x-x---|
E |-0--x-x-x--0-2-|-0--x-x-x-x-x--0-|-2-2-2-2--2-2-2-2-|-0--x-x-x-x-x---|
C |-1--x-x-x--1-2-|-1--x-x-x-x-x----|-4-4-4-4--2-2-2-2-|-1--x-x-x-x-x---|
G |----x-x-x------|----x-x-x-x-x----|------------------|----x-x-x-x-x---|

A |------------------------|-------------------|
E |------------------------|-------------------|
C |--1---2---------0-0-----|-2---0-------------|
G |----------4-2-------4-2-|-------4-2-2-------|

login

Badge Unlocked

Welcome To The Jungle

Complete your first lesson

Badge Unlocked

Start Me Up

Complete The Basics

The Basics

In this section, we will cover everything you need to know about starting to play the ukulele.