This song was my first introduction to Jimi Hendrix and it still remains my favourite song of his. He had a phenomenal technical ability and it becomes so clear when you try to play his songs on a ukulele.

What Are We Learning To Play?

Below is a video of what you will be able to play by the end of this post. 

Ukulele Tabs

This arrangement is a straight rip from Aldrine Guerero and the Ukulele Underground website. I remember watching his uke minutes videos way back when I first starting learning to play. He and Hendrix have both inspired me profoundly the more I think about it. Go have a look at his channel for an in-depth lesson on how to play this song. I have tried my best with the tabs but its a very intricate piece. So I advise scrolling down to his video and using that too.

E |-x-7---|------x-x-------3-5/7-------|-3---10-----10--7h8-8p7-8p7---|
C |-x-7---|-4----x-x---2/4-------------|----------------7---7-------7-|
G |-x-7---|----------------------------|------------------------------|

A |-----7-------------12-----------------|----------------------|
E |------8------8-10b----10-8-10-8---8---|----------3-5/7--5-3--|
C |-9-----9-7-9--------------------9---9/|4-----2/4-------------|
G |--------------------------------------|----------------------|

A |-2---9--10-9----9-----8----7-----9-7--------------7--------------|
E |-2---10---------10----9----8----8----10-8-7--9/10---10-----------|
C |-2-----------11----10----9-----9-----------------------7/9-7-----|
G |-2---------------------------------------------------------------|

A |---0h2--0------0-0---0-0-0-0-|-3-3-3-3-3-3-3-|-0-0-0-0-3-3-3-3--7p5---|
E |---3----3------3-1---1-1-1-1-|-0-0-0-3-3-3-3-|-2-2-2-2-2-2-2-2--5-----|
C |-2----------0--------0-0-0-0-|-0-0-0-0-0-0-0-|-2-2-2-2-2-2-2-2--6-----|
G |---------------------2-2-2-2-|-0-0-0-0-0-0-0-|-2-2-2-2-2-2-2-2--5-----|

This is a video play along to the arrangement.