Ukulele Utopia

A Virtual Learning Experience

Joy Division – Disorder

Disorder

A collection of songs which gave an insight into the workings of Ian Curtis’s mind. There’s not much to say about Joy Division that hasn’t been said already, I mean, Unknown Pleasures is one of those albums that everyone has heard of, everyone knows the band and everyone knows that cover! It says a million and one things but nothing I can say can do it justice. A pure work of genius. Lets learn to play one of my favourite songs on the album, Disorder.

What Are We Learning To Play?

Below is a video of what you will be able to play by the end of this post. 

Ukulele Tabs

We are learning to play the opening two guitar riffs and then the beginning of the vocal line. Palm mute your strings on the first riff to give the sound a little more punch.

A|--6-----6--6--6--6--6--6--------------------------------------------------------------------------------
E|--------------------------3-----3--3--3--3--3--3-----------------------------3-----3--3--3--3--3--3--3--
C|--------------------------------------------------------------------------------------------------------
G|--------------------------------------------------3-----3--3--3--3--3--3--3-----------------------------

A|-----8-----8-----8-----8-----8-----8-----8-----8--|
E|--6-----6-----6-----6-----------------------------|
C|--------------------------5-----5-----5-----5-----|
G|--------------------------------------------------|

A|--5h6--6--6--6--6--6--6--5--5--5--5--5--5--------5--5--8--5--------|
E|--6----------------------------------------------------------8--6--|
C|-------------------------------------------------------------------|
G|-------------------------------------------------------------------|

login

Badge Unlocked

Welcome To The Jungle

Complete your first lesson

Badge Unlocked

Start Me Up

Complete The Basics

The Basics

In this section, we will cover everything you need to know about starting to play the ukulele.