Ukulele Utopia

A Virtual Learning Experience

Sum 41 – In Too Deep

In Too Deep

This song first came to my attention when it was spammed like crazy on Kerrang TV back in the day. Let’s learn to play it on the ukulele …

What Are We Learning To Play?

Below is a video of what you will be able to play by the end of this post. 

Ukulele Tabs

This is a dual ukulele riff, so if you have a buddy that plays the uke too, go get them. For both of the riffs, i find it easier if you place your first finger across both the strings you are using for the first few notes. If you want to make the riffs sound a little tighter. I recommend utilising a palm muting technique.

A |----------------------------------------|
E |-----------4-5-7-5---5-5-5---5------2-4-|
C |-4-4---4-4----------------------3-4-----|
G |----------------------------------------|

A |------------7-----11-7-------------------|
E |--7-7-7--7-----7--------7-7-7-7--5-4-----|
C |-------------------------------------6-4-|
G |-----------------------------------------|

If you enjoyed this post, you may be interested in learning to play Fat Lip by Sum 41 too!

login

Badge Unlocked

Welcome To The Jungle

Complete your first lesson

Badge Unlocked

Start Me Up

Complete The Basics

The Basics

In this section, we will cover everything you need to know about starting to play the ukulele.