Toto – Africa

Africa

What Are We Learning To Play?

Below is a video of what you will be able to play by the end of this post. 

Ukulele Tabs

The tricky part of this song is the crazy stretch. We are barring the 4th fret the using our pinky finger on the 8th and our ring finger to hit that 7th fret.

    D. D. U U.  U D. D. D

A|--0--0--0-0---0-0-----4-
E|--0--0--0-0---0-0--4--4-
C|--1--1--1-1---1-1--3--4-
G|--2--2--2-2---2-2--4--6-

A|---4----4----4----4---
E|--7----7----7----7----
C|-8----8----8----8-----
G|-----4----4----4---4--

login

Badge Unlocked

Welcome To The Jungle

Complete your first lesson

Badge Unlocked

Start Me Up

Complete The Basics

The Basics

In this section, we will cover everything you need to know about starting to play the ukulele.