Ukulele Utopia

A Virtual Learning Experience

Boy Pablo – Feeling Lonely

Feeling Lonely

Some lovely lickage from Boy Pablo made me want to learn this song on I the ukulele. A few years ago, this song was in my YouTube recommendations forever before i ever listening to it. Im glad they persevered for so long lol.

What Are We Learning To Play?

Below is a video of what you will be able to play by the end of this post. 

Ukulele Tabs

The opening chords are pretty jazzy, they are not quite exactly what he plays but the closest i could get with the uke. The main riff is chock full of hammer-ons and its a nippy song to play. Slow it down as much as you need to so you can get your fingers moving correctly before speeding it up again.

A |-4---4-x--4--|-4---4--|--------x-----|-2---2--|
E |-2---2-x--2--|-2---2--|--2---2-x--2--|-2---2--|
C |-2---2-x--2--|-4---4--|--3---3-x--3--|-2---2--|
G |-2---2-x--2--|-2---2--|--4---4-x--4--|--------|

A |--7h9---------------------------------------------------|
E |--------7h9---5h7---2h5---0h2---------2h5---2h5---5/7-5-|
C |--------------------------------1/3---------------------|
G |--------------------------------------------------------|

login

Badge Unlocked

Welcome To The Jungle

Complete your first lesson

Badge Unlocked

Start Me Up

Complete The Basics

The Basics

In this section, we will cover everything you need to know about starting to play the ukulele.