Ukulele Utopia

A Virtual Learning Experience

Joji – Slow Dancing In The Dark

Slow Dancing In The Dark

Ukulele hero George Kusunoki Miller more commonly known as Joji has been making waves in the music industry for some years now. Even when he was making music as Pink Guy and Filthy Frank, his aliases on YouTube. You could tell then that he was a musician at heart and not just another YouTuber trying to profit of getting song streams. Today we are learning to play his monster hit Slow Dancing In The Dark.

What Are We Learning To Play?

Below is a video of what you will be able to play by the end of this post. 

Ukulele Tabs

We are going to need a low G ukulele for this one, you can probably get away with a high G but a lot of the bass notes of the chords are going to sound weak.

A|---------5-----------------------3-----------------------3-----------------------3------------
E|-----6-----6---6-------------3-----3---3-------------4-----4---4-------------3-----3---3------
C|---7---7-----7-----x2------3---3-----3-----x2------5---5-----5-----x2------3---3-----3-----x2-
G|-8-----------------------5-----------------------5-----------------------0--------------------

A|-6/8----6-6-5-5-3-5----6-5-3------6/8----6-6-5-5-3-10-6-5-
E|-----------------------------3----------------------------
C|----------------------------------------------------------
G|----------------------------------------------------------

A|-6/8----6-6-5-5-3-3----3-5-3----10-----------------1-3-----------------|--6----5------
E|-----------------------------------10----10-8-6--------3-1-1-3---------|--3----3------
C|------------------------------------------------------------------3-2--|--3----3--x2--
G|-----------------------------------------------------------------------|--------------

login

Badge Unlocked

Welcome To The Jungle

Complete your first lesson

Badge Unlocked

Start Me Up

Complete The Basics

The Basics

In this section, we will cover everything you need to know about starting to play the ukulele.