m.A.A.d city

Kendrick’s humongous hit m.A.A.d city from his album good kid, m.A.A.d city is a pure hip hop banger. It’s also super simple to play, so let’s learn to play it on the ukulele. 

What Are We Learning To Play?

Below is a video of what you will be able to play by the end of this post. 

Ukulele Tabs

These tabs are split into two parts. Firstly we have the recognisable intro riff. Then we have the delicious guitar work in the middle of the beat change.

A|-------------4-4-|-------------4-4-|-------------4-4-|-------------4-4-|
E|-4-4-4-5-5-5-----|-4-4-4-5-5-5-----|-4-4-4-5-5-5-----|-4-4-4-5-5-5-----|
C|-----------------|-----------------|-----------------|-----------------|
G|-----------------|-----------------|-----------------|-----------------|
A|-----------------------------|-----------------------------|
E|-----5-7---7/8---7-5-----5---|-----5-7---7/8---7-5-----5---|
C|---4-----------------4-----4-|---4-----------------4-----4-|
G|-----------------------------|-----------------------------|



A|-7---8---7---3---|---7---8---7---3-|-7---8---7---3---|-7---8---7---3---|
E|-----------------|-----------------|-----------------|-----------------|
C|-4---5---4---0---|---4---5---4---0-|-4---5---4---0---|-4---5---4---0---|
G|-----------------|-----------------|-----------------|-----------------|

MORE SONGS FROM THIS ALBUM?

Easy-to-print PDFs tabs for over 150 albums.

MORE SONGS FROM THIS ALBUM?

Easy-to-print PDFs tabs for over 150 albums.