Float On

Float On

What Are We Learning To Play?

Below is a video of what you will be able to play by the end of this post. 

Ukulele Tabs

A |-1-----1--1-1---1-1--1-1-1-1---1-----1--1-1---1-1--1-1-1-1-|
E |-1h2---2--2-2---2-2--2-2-2p1---1-----1--1-1---1-1--1-1-1-1-|
C |-1-----1--1-1---1-1--1-1-1-1---1-----1--1-1---1-1--1-1-1-1-|
G |-3-----3--3-3---3-3--3-3-3-3---3-----3--3-3---3-3--3-3-3-3-|

A |-1-----1--1-1---1-1--1-1-1-1---1-1-1-1-1-1-1-1-1-1-1-1-1-1-|
E |-2-----2--2-2---2-2--2-2-2p1---1-1-1-1-1-1-1-1-1-1-1-1-1-1-|
C |-3-----3--3-3---3-3--3-3-3p1---1-1-1-1-1-1-1-1-1-1-1-1-1-1-|
G |-3-----3--3-3---3-3--3-3-3-3---3-3-3-3-3-3-3-3-3-3-3-3-3-3-|

A |-----4------------|-----4------------|-----4------------|----------------------|
E |---6---6-4--6-6-6-|---6---6-4--6-6-6-|---6---6-4--6-6-6-|-4/6-6-6--6-6-6-6-4-2-|
C |-6----------------|-5----------------|-3----------------|----------------------|
G |------------------|------------------|------------------|----------------------|