Ukulele Utopia

A Virtual Learning Experience

The 1975 – i like it when you sleep

A little jam of some of my favourite songs of the new 1975 album. Matt Healy and co have really gone to town on this one and I love it. Had to get out in the sunshine and hit the strings.

This video is part of a project I’m working on. I’m learning to play my favourite bands on a ukulele. If you enjoyed it why not check out some other bands that I arranged like Arctic Monkeys or Two Door Cinema Club

The 1975 Ukulele Tabs

Not sure how to read these? Check out this guide and you will be learning these ukulele tabs in no time.

Love Me

A|-6-6-6-6----5----|-8-8-8-8----7----|-6-6-6-6----5----|-8-8-8-8----7----|
E|-5-5-5-5----4----|-8-8-8-8----7----|-5-5-5-5----4----|-8-8-8-8----7----|
C|-5-5-5-5----4----|-9-9-9-9----8----|-5-5-5-5----4----|-9-9-9-9----8----|
G|-5-5-5-5----4----|-8-8-8-8----7----|-5-5-5-5----4----|-8-8-8-8----7----|
A|-6----0-0----------------|-6----0-0-------------------| E|-5----1-1----2-3-x-2-3-x-|-5----1-1----2-3-x-2-3-x----| C|-5----0-0----2-3-x-2-3-x-|-5----0-0----2-3-x-2-3-x----| G|-5----2-2----2-3-x-2-3-x-|-5----2-2----2-3-x-2-3-x----|
A|---8-------------------|---8-------------------------| E|-----8-6----6-4-6-8----|-----8-6----6-6-8-8-11-11-13-| C|-5---------------------|-5---------------------------| G|-----------------------|-----------------------------|

UGH!

A|-------------------------------------|------------------------------------|-
E|-6h8p6----6h8p6----6h8p6----6h8p6----|-6h8p6----3-6----6-6----1-1-1-------|-
C|-7--------7--------7--------7--------|-7--------5-7----7-7----3-3-3-------|-
G|-------------------------------------|------------------------------------|-

A Change Of Heart

A|-----8---10-8---8-|-------------3---|
E|---8---8------8---|-----6-----0---0-|
C|-5----------------|---5---5-0-------|
G|------------------|-3---------------|

A|-3----1-0----------------------------|--------------------------------------|
E|----------1----3-1-3-5----3-1--------|-3-1-3-5----3-1-3----1-0------1-1-0---|
C|------------------------------0-2----|-------------------------2----------0-|
G|-------------------------------------|--------------------------------------|

Shes American

A|-1----3----1-------1----3----|-3----|---------11---------11-------------
E|-2----4----1-------2----4----|-4----|----9h11----11-9h11----11----------
C|-1----3----1-------3----3----|-1----|-10--------------------------------
G|-3----5----3-------3----5----|------|-----------------------------------

If i Believe You

A|-1----1----1------1-3-3/5-5----5----5------5-3-1-1----1----1------1-3-3/5-5----6-|
E|-1----1----1--------------3----3----3------------1----1----1--------------3----3-|
C|-2----2----2--------------3----3----3------------2----2----2--------------3----3-|
G|-3----3----3----3---------3----3----3----3-------3----3----3----3---------3----3-|

A|-5----6-5-3-8----8----8-8-5---------------3---5----5---5-3---1----1----| E|-3----------5----5----5-----8-5---5---5---3---3----3---------1----1----| C|-3----------5----5----5---------7---7---7-3h5-3----3---------2----2----| G|-3----------5----5----5-------------------3---3----3-3-----3-3----3----|

Please Be Naked

A|--------------------------7----|-
E|-8-7-----------8-7---8----8----|-
C|-----7-5-----------7------7----|-
G|-------------------------------|-

Nana

A|----10-8---------------------|-
E|----8--8----8h10-8-----------|-
C|-10------10--------10-9-5----|-
G|-----------------------------|-

She Lays Down

A|------2------2---------3------3---------2------2----2----3/5-3-2----|-
E|------3------3---------0------0---------3------3----3---------------|-
A|-2---------2------2---------2------2---------2------2---------------|-
G|--------------------------------------------------------------------|-

login

Badge Unlocked

Welcome To The Jungle

Complete your first lesson

Badge Unlocked

Start Me Up

Complete The Basics

The Basics

In this section, we will cover everything you need to know about starting to play the ukulele.