Ukulele Utopia

A Virtual Learning Experience

The Cure – Lullaby

Lullaby

The Cure are one of those bands that you don’t realise how many songs of theirs you know until you whack a playlist of theirs on Spotify. I loved Friday Im In Love as a kid, my mam had the CD single and i would blast at my nana house. Today though, we are learning to play Lullaby from Disintegration.

What Are We Learning To Play?

Below is a video of what you will be able to play by the end of this post. 

Ukulele Tabs

This arrangement is the opening chord and fingerpicking section. Then the solo guitar line that runs before the vocals start.

A |---2--------2-|---2--------2-|---2--------2-|---2--------2---|
E |---4--------4-|---4--------4-|---0--------0-|---0--------0---|
C |-1----1-1-4---|-1----1-1-4---|--------------|--------------2-|
G |--------------|--------------|-2----2-2-2---|-2----2-2-2-----|

A |-------------------7-7-9-9-11-----7-9-9-11--------|
E |-7-9-9-7-9---7-9-9------------9------------9--9-7-|
C |--------------------------------------------------|
G |--------------------------------------------------|

login

Badge Unlocked

Welcome To The Jungle

Complete your first lesson

Badge Unlocked

Start Me Up

Complete The Basics

The Basics

In this section, we will cover everything you need to know about starting to play the ukulele.